ISO-10303-21;
HEADER;
FILE_DESCRIPTION (( 'STEP AP214' ),
    '1' );
FILE_NAME ('MOD-1016870-36077.STEP',
    '2023-01-23T11:16:24',
    ( '' ),
    ( '' ),
    'SwSTEP 2.0',
    'SolidWorks 2020',
    '' );
FILE_SCHEMA (( 'AUTOMOTIVE_DESIGN' ));
ENDSEC;

DATA;
#1 = DIRECTION ( 'NONE',  ( 1.000000000000000000, 0.000000000000000000, -0.000000000000000000 ) ) ;
#2 = ORIENTED_EDGE ( 'NONE', *, *, #53, .T. ) ;
#3 = FACE_OUTER_BOUND ( 'NONE', #69, .T. ) ;
#4 = APPLICATION_PROTOCOL_DEFINITION ( 'draft international standard', 'automotive_design', 1998, #176 ) ;
#5 = ORIENTED_EDGE ( 'NONE', *, *, #39, .F. ) ;
#6 = CARTESIAN_POINT ( 'NONE',  ( -1.024999999999999911, 1.255262969126036846E-16, 0.000000000000000000 ) ) ;
#7 = COLOUR_RGB ( '',0.9137254901960784048, 0.7568627450980391913, 0.5450980392156862253 ) ;
#8 = SURFACE_STYLE_FILL_AREA ( #203 ) ;
#9 =( GEOMETRIC_REPRESENTATION_CONTEXT ( 3 ) GLOBAL_UNCERTAINTY_ASSIGNED_CONTEXT ( ( #55 ) ) GLOBAL_UNIT_ASSIGNED_CONTEXT ( ( #182, #186, #154 ) ) REPRESENTATION_CONTEXT ( 'NONE', 'WORKASPACE' ) );
#10 = DIRECTION ( 'NONE',  ( 0.000000000000000000, 0.000000000000000000, 1.000000000000000000 ) ) ;
#11 = ORIENTED_EDGE ( 'NONE', *, *, #65, .F. ) ;
#12 = DIRECTION ( 'NONE',  ( 0.000000000000000000, 0.000000000000000000, 1.000000000000000000 ) ) ;
#13 = ADVANCED_FACE ( 'NONE', ( #121, #45 ), #26, .F. ) ;
#14 = UNCERTAINTY_MEASURE_WITH_UNIT (LENGTH_MEASURE( 1.000000000000000082E-05 ), #48, 'distance_accuracy_value', 'NONE');
#15 =( GEOMETRIC_REPRESENTATION_CONTEXT ( 3 ) GLOBAL_UNCERTAINTY_ASSIGNED_CONTEXT ( ( #14 ) ) GLOBAL_UNIT_ASSIGNED_CONTEXT ( ( #48, #173, #75 ) ) REPRESENTATION_CONTEXT ( 'NONE', 'WORKASPACE' ) );
#16 = EDGE_CURVE ( 'NONE', #196, #164, #109, .T. ) ;
#17 =( GEOMETRIC_REPRESENTATION_CONTEXT ( 3 ) GLOBAL_UNCERTAINTY_ASSIGNED_CONTEXT ( ( #210 ) ) GLOBAL_UNIT_ASSIGNED_CONTEXT ( ( #108, #161, #82 ) ) REPRESENTATION_CONTEXT ( 'NONE', 'WORKASPACE' ) );
#18 = PRODUCT_DEFINITION_FORMATION_WITH_SPECIFIED_SOURCE ( 'ANY', '', #129, .NOT_KNOWN. ) ;
#19 = EDGE_LOOP ( 'NONE', ( #212, #2, #98, #133 ) ) ;
#20 = DIRECTION ( 'NONE',  ( 0.000000000000000000, 0.000000000000000000, 1.000000000000000000 ) ) ;
#21 = ORIENTED_EDGE ( 'NONE', *, *, #135, .F. ) ;
#22 = CARTESIAN_POINT ( 'NONE',  ( 0.000000000000000000, 0.000000000000000000, -2.000000000000000000 ) ) ;
#23 = EDGE_LOOP ( 'NONE', ( #197, #11 ) ) ;
#24 = CARTESIAN_POINT ( 'NONE',  ( 1.024999999999999911, 0.000000000000000000, -2.000000000000000000 ) ) ;
#25 = MANIFOLD_SOLID_BREP ( 'Linear austragen1', #28 ) ;
#26 = PLANE ( 'NONE',  #202 ) ;
#27 = LINE ( 'NONE', #24, #208 ) ;
#28 = CLOSED_SHELL ( 'NONE', ( #110, #163, #194, #13, #36, #195 ) ) ;
#29 = VERTEX_POINT ( 'NONE', #6 ) ;
#30 = DIRECTION ( 'NONE',  ( 0.000000000000000000, 0.000000000000000000, 1.000000000000000000 ) ) ;
#31 = SURFACE_STYLE_USAGE ( .BOTH. , #78 ) ;
#32 = AXIS2_PLACEMENT_3D ( 'NONE', #77, #89, #46 ) ;
#33 = CARTESIAN_POINT ( 'NONE',  ( 0.000000000000000000, 0.000000000000000000, 0.000000000000000000 ) ) ;
#34 = FILL_AREA_STYLE ('',( #213 ) ) ;
#35 = PRESENTATION_LAYER_ASSIGNMENT (  '', '', ( #95 ) ) ;
#36 = ADVANCED_FACE ( 'NONE', ( #205, #139 ), #179, .T. ) ;
#37 = DIRECTION ( 'NONE',  ( 0.000000000000000000, 0.000000000000000000, 1.000000000000000000 ) ) ;
#38 = EDGE_LOOP ( 'NONE', ( #167, #149, #157, #198 ) ) ;
#39 = EDGE_CURVE ( 'NONE', #113, #164, #68, .T. ) ;
#40 = VERTEX_POINT ( 'NONE', #70 ) ;
#41 = DIRECTION ( 'NONE',  ( 0.000000000000000000, 0.000000000000000000, 1.000000000000000000 ) ) ;
#42 = AXIS2_PLACEMENT_3D ( 'NONE', #187, #151, #44 ) ;
#43 = CARTESIAN_POINT ( 'NONE',  ( 0.000000000000000000, 0.000000000000000000, -2.000000000000000000 ) ) ;
#44 = DIRECTION ( 'NONE',  ( 1.000000000000000000, 0.000000000000000000, 0.000000000000000000 ) ) ;
#45 = FACE_OUTER_BOUND ( 'NONE', #23, .T. ) ;
#46 = DIRECTION ( 'NONE',  ( 1.000000000000000000, 0.000000000000000000, 0.000000000000000000 ) ) ;
#47 = MECHANICAL_DESIGN_GEOMETRIC_PRESENTATION_REPRESENTATION (  '', ( #159 ), #15 ) ;
#48 =( LENGTH_UNIT ( ) NAMED_UNIT ( * ) SI_UNIT ( .MILLI., .METRE. ) );
#49 = DIRECTION ( 'NONE',  ( 0.000000000000000000, 0.000000000000000000, 1.000000000000000000 ) ) ;
#50 = EDGE_CURVE ( 'NONE', #97, #113, #115, .T. ) ;
#51 = PRESENTATION_LAYER_ASSIGNMENT (  '', '', ( #159 ) ) ;
#52 = ORIENTED_EDGE ( 'NONE', *, *, #50, .T. ) ;
#53 = EDGE_CURVE ( 'NONE', #40, #29, #158, .T. ) ;
#54 = VECTOR ( 'NONE', #10, 1000.000000000000000 ) ;
#55 = UNCERTAINTY_MEASURE_WITH_UNIT (LENGTH_MEASURE( 1.000000000000000082E-05 ), #182, 'distance_accuracy_value', 'NONE');
#56 = CARTESIAN_POINT ( 'NONE',  ( 1.199999999999999956, 0.000000000000000000, -2.000000000000000000 ) ) ;
#57 = CARTESIAN_POINT ( 'NONE',  ( -1.199999999999999956, 1.469576158976823553E-16, 0.000000000000000000 ) ) ;
#58 = DIRECTION ( 'NONE',  ( 1.000000000000000000, 0.000000000000000000, -0.000000000000000000 ) ) ;
#59 = DIRECTION ( 'NONE',  ( 0.000000000000000000, 0.000000000000000000, 1.000000000000000000 ) ) ;
#60 = CARTESIAN_POINT ( 'NONE',  ( 0.000000000000000000, 0.000000000000000000, -2.000000000000000000 ) ) ;
#61 = CARTESIAN_POINT ( 'NONE',  ( 0.000000000000000000, 0.000000000000000000, 0.000000000000000000 ) ) ;
#62 = CYLINDRICAL_SURFACE ( 'NONE', #32, 1.024999999999999911 ) ;
#63 = EDGE_CURVE ( 'NONE', #97, #196, #189, .T. ) ;
#64 = VECTOR ( 'NONE', #30, 1000.000000000000000 ) ;
#65 = EDGE_CURVE ( 'NONE', #113, #97, #185, .T. ) ;
#66 = ORIENTED_EDGE ( 'NONE', *, *, #127, .F. ) ;
#67 = CIRCLE ( 'NONE', #168, 1.199999999999999956 ) ;
#68 = LINE ( 'NONE', #93, #64 ) ;
#69 = EDGE_LOOP ( 'NONE', ( #52, #72, #181, #171 ) ) ;
#70 = CARTESIAN_POINT ( 'NONE',  ( -1.024999999999999911, 1.255262969126036846E-16, -2.000000000000000000 ) ) ;
#71 = PRODUCT_CONTEXT ( 'NONE', #176, 'mechanical' ) ;
#72 = ORIENTED_EDGE ( 'NONE', *, *, #39, .T. ) ;
#73 = CARTESIAN_POINT ( 'NONE',  ( 0.000000000000000000, 0.000000000000000000, -2.000000000000000000 ) ) ;
#74 = MECHANICAL_DESIGN_GEOMETRIC_PRESENTATION_REPRESENTATION (  '', ( #95 ), #9 ) ;
#75 =( NAMED_UNIT ( * ) SI_UNIT ( $, .STERADIAN. ) SOLID_ANGLE_UNIT ( ) );
#76 = PRODUCT_DEFINITION_CONTEXT ( 'detailed design', #128, 'design' ) ;
#77 = CARTESIAN_POINT ( 'NONE',  ( 0.000000000000000000, 0.000000000000000000, -2.000000000000000000 ) ) ;
#78 = SURFACE_SIDE_STYLE ('',( #8 ) ) ;
#79 = CARTESIAN_POINT ( 'NONE',  ( 0.000000000000000000, 0.000000000000000000, -2.000000000000000000 ) ) ;
#80 = AXIS2_PLACEMENT_3D ( 'NONE', #79, #153, #177 ) ;
#81 = EDGE_CURVE ( 'NONE', #29, #190, #94, .T. ) ;
#82 =( NAMED_UNIT ( * ) SI_UNIT ( $, .STERADIAN. ) SOLID_ANGLE_UNIT ( ) );
#83 = VECTOR ( 'NONE', #20, 1000.000000000000000 ) ;
#84 = EDGE_CURVE ( 'NONE', #200, #190, #27, .T. ) ;
#85 = ORIENTED_EDGE ( 'NONE', *, *, #16, .T. ) ;
#86 = DIRECTION ( 'NONE',  ( 1.000000000000000000, 0.000000000000000000, 0.000000000000000000 ) ) ;
#87 = ORIENTED_EDGE ( 'NONE', *, *, #65, .T. ) ;
#88 = DIRECTION ( 'NONE',  ( 0.000000000000000000, 0.000000000000000000, 1.000000000000000000 ) ) ;
#89 = DIRECTION ( 'NONE',  ( 0.000000000000000000, 0.000000000000000000, 1.000000000000000000 ) ) ;
#90 = CARTESIAN_POINT ( 'NONE',  ( 0.000000000000000000, 0.000000000000000000, 0.000000000000000000 ) ) ;
#91 = PRODUCT_DEFINITION ( 'UNKNOWN', '', #18, #76 ) ;
#92 = DIRECTION ( 'NONE',  ( 1.000000000000000000, 0.000000000000000000, 0.000000000000000000 ) ) ;
#93 = CARTESIAN_POINT ( 'NONE',  ( -1.199999999999999956, 1.469576158976823553E-16, -2.000000000000000000 ) ) ;
#94 = CIRCLE ( 'NONE', #106, 1.024999999999999911 ) ;
#95 = STYLED_ITEM ( 'NONE', ( #111 ), #214 ) ;
#96 = DIRECTION ( 'NONE',  ( 1.000000000000000000, 0.000000000000000000, 0.000000000000000000 ) ) ;
#97 = VERTEX_POINT ( 'NONE', #56 ) ;
#98 = ORIENTED_EDGE ( 'NONE', *, *, #81, .T. ) ;
#99 = DIRECTION ( 'NONE',  ( 0.000000000000000000, 0.000000000000000000, 1.000000000000000000 ) ) ;
#100 = ORIENTED_EDGE ( 'NONE', *, *, #135, .T. ) ;
#101 = CYLINDRICAL_SURFACE ( 'NONE', #144, 1.024999999999999911 ) ;
#102 = CARTESIAN_POINT ( 'NONE',  ( 0.000000000000000000, 0.000000000000000000, -2.000000000000000000 ) ) ;
#103 = DIRECTION ( 'NONE',  ( 1.000000000000000000, 0.000000000000000000, 0.000000000000000000 ) ) ;
#104 = FILL_AREA_STYLE_COLOUR ( '', #7 ) ;
#105 = DIRECTION ( 'NONE',  ( 1.000000000000000000, 0.000000000000000000, 0.000000000000000000 ) ) ;
#106 = AXIS2_PLACEMENT_3D ( 'NONE', #172, #122, #207 ) ;
#107 = EDGE_LOOP ( 'NONE', ( #5, #87, #136, #21 ) ) ;
#108 =( LENGTH_UNIT ( ) NAMED_UNIT ( * ) SI_UNIT ( .MILLI., .METRE. ) );
#109 = CIRCLE ( 'NONE', #145, 1.199999999999999956 ) ;
#110 = ADVANCED_FACE ( 'NONE', ( #116 ), #62, .F. ) ;
#111 = PRESENTATION_STYLE_ASSIGNMENT (( #148 ) ) ;
#112 = EDGE_LOOP ( 'NONE', ( #66, #175 ) ) ;
#113 = VERTEX_POINT ( 'NONE', #156 ) ;
#114 = CARTESIAN_POINT ( 'NONE',  ( 0.000000000000000000, 0.000000000000000000, -2.000000000000000000 ) ) ;
#115 = CIRCLE ( 'NONE', #211, 1.199999999999999956 ) ;
#116 = FACE_OUTER_BOUND ( 'NONE', #19, .T. ) ;
#117 = DIRECTION ( 'NONE',  ( 0.000000000000000000, 0.000000000000000000, 1.000000000000000000 ) ) ;
#118 = EDGE_CURVE ( 'NONE', #40, #200, #134, .T. ) ;
#119 = CYLINDRICAL_SURFACE ( 'NONE', #80, 1.199999999999999956 ) ;
#120 = SHAPE_DEFINITION_REPRESENTATION ( #146, #214 ) ;
#121 = FACE_BOUND ( 'NONE', #152, .T. ) ;
#122 = DIRECTION ( 'NONE',  ( 0.000000000000000000, 0.000000000000000000, 1.000000000000000000 ) ) ;
#123 = DIRECTION ( 'NONE',  ( 0.000000000000000000, 0.000000000000000000, 1.000000000000000000 ) ) ;
#124 = DIRECTION ( 'NONE',  ( 0.000000000000000000, 0.000000000000000000, 1.000000000000000000 ) ) ;
#125 = CIRCLE ( 'NONE', #42, 1.024999999999999911 ) ;
#126 = AXIS2_PLACEMENT_3D ( 'NONE', #184, #99, #1 ) ;
#127 = EDGE_CURVE ( 'NONE', #190, #29, #162, .T. ) ;
#128 = APPLICATION_CONTEXT ( 'automotive_design' ) ;
#129 = PRODUCT ( 'MOD-1016870-36077', 'MOD-1016870-36077', '', ( #71 ) ) ;
#130 = SURFACE_SIDE_STYLE ('',( #132 ) ) ;
#131 = AXIS2_PLACEMENT_3D ( 'NONE', #90, #12, #170 ) ;
#132 = SURFACE_STYLE_FILL_AREA ( #34 ) ;
#133 = ORIENTED_EDGE ( 'NONE', *, *, #84, .F. ) ;
#134 = CIRCLE ( 'NONE', #150, 1.024999999999999911 ) ;
#135 = EDGE_CURVE ( 'NONE', #164, #196, #67, .T. ) ;
#136 = ORIENTED_EDGE ( 'NONE', *, *, #63, .T. ) ;
#137 = CARTESIAN_POINT ( 'NONE',  ( -1.024999999999999911, 1.255262969126036846E-16, -2.000000000000000000 ) ) ;
#138 = EDGE_LOOP ( 'NONE', ( #85, #100 ) ) ;
#139 = FACE_OUTER_BOUND ( 'NONE', #138, .T. ) ;
#140 = DIRECTION ( 'NONE',  ( 0.000000000000000000, 0.000000000000000000, 1.000000000000000000 ) ) ;
#141 = CARTESIAN_POINT ( 'NONE',  ( 0.000000000000000000, 0.000000000000000000, 0.000000000000000000 ) ) ;
#142 = PRESENTATION_STYLE_ASSIGNMENT (( #31 ) ) ;
#143 = CARTESIAN_POINT ( 'NONE',  ( 1.024999999999999911, 0.000000000000000000, 0.000000000000000000 ) ) ;
#144 = AXIS2_PLACEMENT_3D ( 'NONE', #60, #49, #166 ) ;
#145 = AXIS2_PLACEMENT_3D ( 'NONE', #61, #123, #92 ) ;
#146 = PRODUCT_DEFINITION_SHAPE ( 'NONE', 'NONE',  #91 ) ;
#147 = PRODUCT_RELATED_PRODUCT_CATEGORY ( 'part', '', ( #129 ) ) ;
#148 = SURFACE_STYLE_USAGE ( .BOTH. , #130 ) ;
#149 = ORIENTED_EDGE ( 'NONE', *, *, #178, .F. ) ;
#150 = AXIS2_PLACEMENT_3D ( 'NONE', #114, #155, #105 ) ;
#151 = DIRECTION ( 'NONE',  ( 0.000000000000000000, 0.000000000000000000, 1.000000000000000000 ) ) ;
#152 = EDGE_LOOP ( 'NONE', ( #165, #183 ) ) ;
#153 = DIRECTION ( 'NONE',  ( 0.000000000000000000, 0.000000000000000000, 1.000000000000000000 ) ) ;
#154 =( NAMED_UNIT ( * ) SI_UNIT ( $, .STERADIAN. ) SOLID_ANGLE_UNIT ( ) );
#155 = DIRECTION ( 'NONE',  ( 0.000000000000000000, 0.000000000000000000, 1.000000000000000000 ) ) ;
#156 = CARTESIAN_POINT ( 'NONE',  ( -1.199999999999999956, 1.469576158976823553E-16, -2.000000000000000000 ) ) ;
#157 = ORIENTED_EDGE ( 'NONE', *, *, #84, .T. ) ;
#158 = LINE ( 'NONE', #137, #54 ) ;
#159 = STYLED_ITEM ( 'NONE', ( #142 ), #25 ) ;
#160 = AXIS2_PLACEMENT_3D ( 'NONE', #43, #124, #86 ) ;
#161 =( NAMED_UNIT ( * ) PLANE_ANGLE_UNIT ( ) SI_UNIT ( $, .RADIAN. ) );
#162 = CIRCLE ( 'NONE', #131, 1.024999999999999911 ) ;
#163 = ADVANCED_FACE ( 'NONE', ( #3 ), #119, .T. ) ;
#164 = VERTEX_POINT ( 'NONE', #57 ) ;
#165 = ORIENTED_EDGE ( 'NONE', *, *, #178, .T. ) ;
#166 = DIRECTION ( 'NONE',  ( 1.000000000000000000, 0.000000000000000000, 0.000000000000000000 ) ) ;
#167 = ORIENTED_EDGE ( 'NONE', *, *, #53, .F. ) ;
#168 = AXIS2_PLACEMENT_3D ( 'NONE', #141, #88, #103 ) ;
#169 = AXIS2_PLACEMENT_3D ( 'NONE', #33, #37, #96 ) ;
#170 = DIRECTION ( 'NONE',  ( 1.000000000000000000, 0.000000000000000000, 0.000000000000000000 ) ) ;
#171 = ORIENTED_EDGE ( 'NONE', *, *, #63, .F. ) ;
#172 = CARTESIAN_POINT ( 'NONE',  ( 0.000000000000000000, 0.000000000000000000, 0.000000000000000000 ) ) ;
#173 =( NAMED_UNIT ( * ) PLANE_ANGLE_UNIT ( ) SI_UNIT ( $, .RADIAN. ) );
#174 = FACE_OUTER_BOUND ( 'NONE', #107, .T. ) ;
#175 = ORIENTED_EDGE ( 'NONE', *, *, #81, .F. ) ;
#176 = APPLICATION_CONTEXT ( 'automotive_design' ) ;
#177 = DIRECTION ( 'NONE',  ( 1.000000000000000000, 0.000000000000000000, 0.000000000000000000 ) ) ;
#178 = EDGE_CURVE ( 'NONE', #200, #40, #125, .T. ) ;
#179 = PLANE ( 'NONE',  #126 ) ;
#180 = CARTESIAN_POINT ( 'NONE',  ( 1.024999999999999911, 0.000000000000000000, -2.000000000000000000 ) ) ;
#181 = ORIENTED_EDGE ( 'NONE', *, *, #16, .F. ) ;
#182 =( LENGTH_UNIT ( ) NAMED_UNIT ( * ) SI_UNIT ( .MILLI., .METRE. ) );
#183 = ORIENTED_EDGE ( 'NONE', *, *, #118, .T. ) ;
#184 = CARTESIAN_POINT ( 'NONE',  ( 0.000000000000000000, 0.000000000000000000, 0.000000000000000000 ) ) ;
#185 = CIRCLE ( 'NONE', #192, 1.199999999999999956 ) ;
#186 =( NAMED_UNIT ( * ) PLANE_ANGLE_UNIT ( ) SI_UNIT ( $, .RADIAN. ) );
#187 = CARTESIAN_POINT ( 'NONE',  ( 0.000000000000000000, 0.000000000000000000, -2.000000000000000000 ) ) ;
#188 = APPLICATION_PROTOCOL_DEFINITION ( 'draft international standard', 'automotive_design', 1998, #128 ) ;
#189 = LINE ( 'NONE', #191, #83 ) ;
#190 = VERTEX_POINT ( 'NONE', #143 ) ;
#191 = CARTESIAN_POINT ( 'NONE',  ( 1.199999999999999956, 0.000000000000000000, -2.000000000000000000 ) ) ;
#192 = AXIS2_PLACEMENT_3D ( 'NONE', #22, #41, #199 ) ;
#193 = FACE_OUTER_BOUND ( 'NONE', #38, .T. ) ;
#194 = ADVANCED_FACE ( 'NONE', ( #174 ), #206, .T. ) ;
#195 = ADVANCED_FACE ( 'NONE', ( #193 ), #101, .F. ) ;
#196 = VERTEX_POINT ( 'NONE', #209 ) ;
#197 = ORIENTED_EDGE ( 'NONE', *, *, #50, .F. ) ;
#198 = ORIENTED_EDGE ( 'NONE', *, *, #127, .T. ) ;
#199 = DIRECTION ( 'NONE',  ( 1.000000000000000000, 0.000000000000000000, 0.000000000000000000 ) ) ;
#200 = VERTEX_POINT ( 'NONE', #180 ) ;
#201 = DIRECTION ( 'NONE',  ( 1.000000000000000000, 0.000000000000000000, 0.000000000000000000 ) ) ;
#202 = AXIS2_PLACEMENT_3D ( 'NONE', #102, #117, #58 ) ;
#203 = FILL_AREA_STYLE ('',( #104 ) ) ;
#204 = COLOUR_RGB ( '',0.9137254901960784048, 0.7568627450980391913, 0.5450980392156862253 ) ;
#205 = FACE_BOUND ( 'NONE', #112, .T. ) ;
#206 = CYLINDRICAL_SURFACE ( 'NONE', #160, 1.199999999999999956 ) ;
#207 = DIRECTION ( 'NONE',  ( 1.000000000000000000, 0.000000000000000000, 0.000000000000000000 ) ) ;
#208 = VECTOR ( 'NONE', #140, 1000.000000000000000 ) ;
#209 = CARTESIAN_POINT ( 'NONE',  ( 1.199999999999999956, 0.000000000000000000, 0.000000000000000000 ) ) ;
#210 = UNCERTAINTY_MEASURE_WITH_UNIT (LENGTH_MEASURE( 1.000000000000000082E-05 ), #108, 'distance_accuracy_value', 'NONE');
#211 = AXIS2_PLACEMENT_3D ( 'NONE', #73, #59, #201 ) ;
#212 = ORIENTED_EDGE ( 'NONE', *, *, #118, .F. ) ;
#213 = FILL_AREA_STYLE_COLOUR ( '', #204 ) ;
#214 = ADVANCED_BREP_SHAPE_REPRESENTATION ( 'MOD-1016870-36077', ( #25, #169 ), #17 ) ;
ENDSEC;
END-ISO-10303-21;
